ISO-10303-21;
HEADER;
FILE_DESCRIPTION (( 'STEP AP203' ),
    '1' );
FILE_NAME ('250814 STEP 3-400575-00_6813.STEP',
    '2025-08-14T10:54:49',
    ( '' ),
    ( '' ),
    'SwSTEP 2.0',
    'SolidWorks 2024',
    '' );
FILE_SCHEMA (( 'CONFIG_CONTROL_DESIGN' ));
ENDSEC;

DATA;
#1 = DIRECTION ( 'NONE',  ( -1.000000000000000000, 0.000000000000000000, 0.000000000000000000 ) ) ;
#2 = CC_DESIGN_PERSON_AND_ORGANIZATION_ASSIGNMENT ( #8, #109, ( #32 ) ) ;
#3 = CARTESIAN_POINT ( 'NONE',  ( 0.000000000000000000, 44.32330298965098336, 9.550000000000000711 ) ) ;
#4 = FACE_OUTER_BOUND ( 'NONE', #91, .T. ) ;
#5 = APPROVAL_PERSON_ORGANIZATION ( #115, #328, #82 ) ;
#6 = DIRECTION ( 'NONE',  ( -0.000000000000000000, -0.000000000000000000, 1.000000000000000000 ) ) ;
#7 = CARTESIAN_POINT ( 'NONE',  ( 20.00000000000000355, 0.000000000000000000, -7.500000000000005329 ) ) ;
#8 = PERSON_AND_ORGANIZATION ( #248, #30 ) ;
#9 = AXIS2_PLACEMENT_3D ( 'NONE', #152, #25, #255 ) ;
#10 = CARTESIAN_POINT ( 'NONE',  ( 0.000000000000000000, 0.000000000000000000, 8.256108849411667450 ) ) ;
#11 = CONICAL_SURFACE ( 'NONE', #253, 89.70000000000000284, 1.047197551196596521 ) ;
#12 = VERTEX_POINT ( 'NONE', #208 ) ;
#13 = CALENDAR_DATE ( 2025, 14, 8 ) ;
#14 = DIRECTION ( 'NONE',  ( 1.000000000000000000, 0.000000000000000000, 0.000000000000000000 ) ) ;
#15 = EDGE_LOOP ( 'NONE', ( #42 ) ) ;
#16 = ORIENTED_EDGE ( 'NONE', *, *, #33, .F. ) ;
#17 = FACE_OUTER_BOUND ( 'NONE', #19, .T. ) ;
#18 = CIRCLE ( 'NONE', #264, 89.70000000000001705 ) ;
#19 = EDGE_LOOP ( 'NONE', ( #69 ) ) ;
#20 = DIRECTION ( 'NONE',  ( 1.000000000000000000, 0.000000000000000000, 0.000000000000000000 ) ) ;
#21 = ADVANCED_FACE ( 'NONE', ( #245, #17 ), #196, .F. ) ;
#22 = FACE_OUTER_BOUND ( 'NONE', #15, .T. ) ;
#23 = CIRCLE ( 'NONE', #213, 101.5999999999999943 ) ;
#24 = DATE_AND_TIME ( #299, #326 ) ;
#25 = DIRECTION ( 'NONE',  ( -0.000000000000000000, -0.000000000000000000, 1.000000000000000000 ) ) ;
#26 = APPROVAL ( #210, 'UNSPECIFIED' ) ;
#27 = FACE_OUTER_BOUND ( 'NONE', #192, .T. ) ;
#28 = FACE_BOUND ( 'NONE', #68, .T. ) ;
#29 = DIRECTION ( 'NONE',  ( -0.000000000000000000, -0.000000000000000000, 1.000000000000000000 ) ) ;
#30 = ORGANIZATION ( 'UNSPECIFIED', 'UNSPECIFIED', '' ) ;
#31 = VERTEX_POINT ( 'NONE', #137 ) ;
#32 = PRODUCT ( '250814 STEP 3-400575-00_6813', '250814 STEP 3-400575-00_6813', '', ( #107 ) ) ;
#33 = EDGE_CURVE ( 'NONE', #12, #12, #167, .T. ) ;
#34 = VERTEX_POINT ( 'NONE', #139 ) ;
#35 = VERTEX_POINT ( 'NONE', #238 ) ;
#36 = AXIS2_PLACEMENT_3D ( 'NONE', #171, #49, #20 ) ;
#37 = PERSON_AND_ORGANIZATION_ROLE ( 'classification_officer' ) ;
#38 = CYLINDRICAL_SURFACE ( 'NONE', #301, 20.00000000000000355 ) ;
#39 = PERSON_AND_ORGANIZATION ( #248, #30 ) ;
#40 = EDGE_LOOP ( 'NONE', ( #41 ) ) ;
#41 = ORIENTED_EDGE ( 'NONE', *, *, #244, .F. ) ;
#42 = ORIENTED_EDGE ( 'NONE', *, *, #44, .F. ) ;
#43 = ORIENTED_EDGE ( 'NONE', *, *, #146, .F. ) ;
#44 = EDGE_CURVE ( 'NONE', #281, #281, #140, .T. ) ;
#45 = LOCAL_TIME ( 13, 54, 49.00000000000000000, #143 ) ;
#46 = DIRECTION ( 'NONE',  ( 1.000000000000000000, 0.000000000000000000, -0.000000000000000000 ) ) ;
#47 = FACE_OUTER_BOUND ( 'NONE', #65, .T. ) ;
#48 = PERSON_AND_ORGANIZATION ( #248, #30 ) ;
#49 = DIRECTION ( 'NONE',  ( -0.000000000000000000, -0.000000000000000000, 1.000000000000000000 ) ) ;
#50 = DIRECTION ( 'NONE',  ( -0.000000000000000000, -0.000000000000000000, 1.000000000000000000 ) ) ;
#51 = CIRCLE ( 'NONE', #155, 10.00000000000000000 ) ;
#52 = FACE_OUTER_BOUND ( 'NONE', #243, .T. ) ;
#53 = VERTEX_POINT ( 'NONE', #259 ) ;
#54 = CC_DESIGN_PERSON_AND_ORGANIZATION_ASSIGNMENT ( #61, #37, ( #119 ) ) ;
#55 = DIRECTION ( 'NONE',  ( 1.000000000000000000, 0.000000000000000000, 0.000000000000000000 ) ) ;
#56 = EDGE_CURVE ( 'NONE', #53, #53, #23, .T. ) ;
#57 = CARTESIAN_POINT ( 'NONE',  ( 0.000000000000000000, 0.000000000000000000, 9.550000000000000711 ) ) ;
#58 = DATE_AND_TIME ( #87, #190 ) ;
#59 = ADVANCED_FACE ( 'NONE', ( #130, #28 ), #250, .T. ) ;
#60 = DIRECTION ( 'NONE',  ( 1.000000000000000000, 0.000000000000000000, 0.000000000000000000 ) ) ;
#61 = PERSON_AND_ORGANIZATION ( #248, #30 ) ;
#62 = DIRECTION ( 'NONE',  ( 1.000000000000000000, 0.000000000000000000, 0.000000000000000000 ) ) ;
#63 = AXIS2_PLACEMENT_3D ( 'NONE', #113, #290, #136 ) ;
#64 =( NAMED_UNIT ( * ) SI_UNIT ( $, .STERADIAN. ) SOLID_ANGLE_UNIT ( ) );
#65 = EDGE_LOOP ( 'NONE', ( #94 ) ) ;
#66 = EDGE_LOOP ( 'NONE', ( #293 ) ) ;
#67 = ORIENTED_EDGE ( 'NONE', *, *, #211, .T. ) ;
#68 = EDGE_LOOP ( 'NONE', ( #147 ) ) ;
#69 = ORIENTED_EDGE ( 'NONE', *, *, #33, .T. ) ;
#70 = CC_DESIGN_APPROVAL ( #209, ( #119 ) ) ;
#71 = FACE_BOUND ( 'NONE', #323, .T. ) ;
#72 = CC_DESIGN_APPROVAL ( #26, ( #84 ) ) ;
#73 = CYLINDRICAL_SURFACE ( 'NONE', #125, 101.5999999999999943 ) ;
#74 = DIRECTION ( 'NONE',  ( -0.000000000000000000, -0.000000000000000000, -1.000000000000000000 ) ) ;
#75 = CARTESIAN_POINT ( 'NONE',  ( 0.000000000000000000, 0.000000000000000000, 9.550000000000000711 ) ) ;
#76 = AXIS2_PLACEMENT_3D ( 'NONE', #57, #6, #207 ) ;
#77 = DIRECTION ( 'NONE',  ( -0.000000000000000000, -0.000000000000000000, -1.000000000000000000 ) ) ;
#78 = AXIS2_PLACEMENT_3D ( 'NONE', #254, #325, #175 ) ;
#79 = DIRECTION ( 'NONE',  ( -0.000000000000000000, -0.000000000000000000, 1.000000000000000000 ) ) ;
#80 = ADVANCED_FACE ( 'NONE', ( #98, #300 ), #123, .T. ) ;
#81 = FACE_OUTER_BOUND ( 'NONE', #168, .T. ) ;
#82 = APPROVAL_ROLE ( '' ) ;
#83 = CARTESIAN_POINT ( 'NONE',  ( 89.70000000000000284, 0.000000000000000000, 1.385640646055105840 ) ) ;
#84 = PRODUCT_DEFINITION ( 'UNKNOWN', '', #150, #131 ) ;
#85 = DATE_AND_TIME ( #236, #173 ) ;
#86 = VERTEX_POINT ( 'NONE', #262 ) ;
#87 = CALENDAR_DATE ( 2025, 14, 8 ) ;
#88 = DATE_AND_TIME ( #13, #45 ) ;
#89 = ORIENTED_EDGE ( 'NONE', *, *, #200, .F. ) ;
#90 =( GEOMETRIC_REPRESENTATION_CONTEXT ( 3 ) GLOBAL_UNCERTAINTY_ASSIGNED_CONTEXT ( ( #134 ) ) GLOBAL_UNIT_ASSIGNED_CONTEXT ( ( #141, #310, #64 ) ) REPRESENTATION_CONTEXT ( 'NONE', 'WORKASPACE' ) );
#91 = EDGE_LOOP ( 'NONE', ( #149 ) ) ;
#92 = ADVANCED_FACE ( 'NONE', ( #22, #156 ), #73, .T. ) ;
#93 = ORIENTED_EDGE ( 'NONE', *, *, #146, .T. ) ;
#94 = ORIENTED_EDGE ( 'NONE', *, *, #271, .F. ) ;
#95 = AXIS2_PLACEMENT_3D ( 'NONE', #226, #74, #298 ) ;
#96 = ORIENTED_EDGE ( 'NONE', *, *, #56, .F. ) ;
#97 = DIRECTION ( 'NONE',  ( 1.000000000000000000, 0.000000000000000000, 0.000000000000000000 ) ) ;
#98 = FACE_BOUND ( 'NONE', #294, .T. ) ;
#99 = FACE_OUTER_BOUND ( 'NONE', #194, .T. ) ;
#100 = CARTESIAN_POINT ( 'NONE',  ( 0.000000000000000000, 0.000000000000000000, 9.550000000000000711 ) ) ;
#101 = CARTESIAN_POINT ( 'NONE',  ( 0.000000000000000000, 0.000000000000000000, -8.256108849411651462 ) ) ;
#102 = FACE_BOUND ( 'NONE', #219, .T. ) ;
#103 = AXIS2_PLACEMENT_3D ( 'NONE', #3, #302, #278 ) ;
#104 = LOCAL_TIME ( 13, 54, 49.00000000000000000, #159 ) ;
#105 = EDGE_CURVE ( 'NONE', #86, #86, #280, .T. ) ;
#106 = CARTESIAN_POINT ( 'NONE',  ( 0.000000000000000000, 0.000000000000000000, 9.550000000000000711 ) ) ;
#107 = MECHANICAL_CONTEXT ( 'NONE', #225, 'mechanical' ) ;
#108 = VERTEX_POINT ( 'NONE', #83 ) ;
#109 = PERSON_AND_ORGANIZATION_ROLE ( 'design_owner' ) ;
#110 = VERTEX_POINT ( 'NONE', #215 ) ;
#111 = AXIS2_PLACEMENT_3D ( 'NONE', #182, #181, #60 ) ;
#112 = DATE_AND_TIME ( #286, #104 ) ;
#113 = CARTESIAN_POINT ( 'NONE',  ( 0.000000000000000000, 0.000000000000000000, -7.500000000000005329 ) ) ;
#114 = APPLICATION_PROTOCOL_DEFINITION ( 'international standard', 'config_control_design', 1994, #225 ) ;
#115 = PERSON_AND_ORGANIZATION ( #248, #30 ) ;
#116 = CC_DESIGN_PERSON_AND_ORGANIZATION_ASSIGNMENT ( #312, #187, ( #150 ) ) ;
#117 = ORIENTED_EDGE ( 'NONE', *, *, #202, .T. ) ;
#118 = ADVANCED_FACE ( 'NONE', ( #71, #151 ), #279, .F. ) ;
#119 = SECURITY_CLASSIFICATION ( '', '', #289 ) ;
#120 = ORIENTED_EDGE ( 'NONE', *, *, #271, .T. ) ;
#121 = ORIENTED_EDGE ( 'NONE', *, *, #56, .T. ) ;
#122 = ADVANCED_FACE ( 'NONE', ( #203, #27 ), #204, .F. ) ;
#123 = CONICAL_SURFACE ( 'NONE', #233, 101.5999999999999943, 1.047197551196596965 ) ;
#124 = ORIENTED_EDGE ( 'NONE', *, *, #202, .F. ) ;
#125 = AXIS2_PLACEMENT_3D ( 'NONE', #100, #177, #277 ) ;
#126 = APPROVAL_STATUS ( 'not_yet_approved' ) ;
#127 = CARTESIAN_POINT ( 'NONE',  ( 0.000000000000000000, 0.000000000000000000, -1.385640646055105840 ) ) ;
#128 = COORDINATED_UNIVERSAL_TIME_OFFSET ( 2, 0, .AHEAD. ) ;
#129 = FACE_BOUND ( 'NONE', #221, .T. ) ;
#130 = FACE_OUTER_BOUND ( 'NONE', #297, .T. ) ;
#131 = DESIGN_CONTEXT ( 'detailed design', #288, 'design' ) ;
#132 = CARTESIAN_POINT ( 'NONE',  ( 0.000000000000000000, 0.000000000000000000, 7.499999999999994671 ) ) ;
#133 = DIRECTION ( 'NONE',  ( -0.000000000000000000, -0.000000000000000000, 1.000000000000000000 ) ) ;
#134 = UNCERTAINTY_MEASURE_WITH_UNIT (LENGTH_MEASURE( 1.000000000000000082E-05 ), #141, 'distance_accuracy_value', 'NONE');
#135 = ADVANCED_BREP_SHAPE_REPRESENTATION ( '250814 STEP 3-400575-00_6813', ( #266, #247 ), #90 ) ;
#136 = DIRECTION ( 'NONE',  ( 1.000000000000000000, 0.000000000000000000, -0.000000000000000000 ) ) ;
#137 = CARTESIAN_POINT ( 'NONE',  ( 10.00000000000000000, 0.000000000000000000, -7.500000000000005329 ) ) ;
#138 = CARTESIAN_POINT ( 'NONE',  ( 0.000000000000000000, 0.000000000000000000, 0.000000000000000000 ) ) ;
#139 = CARTESIAN_POINT ( 'NONE',  ( 20.00000000000000355, 0.000000000000000000, -9.550000000000000711 ) ) ;
#140 = CIRCLE ( 'NONE', #9, 101.5999999999999943 ) ;
#141 =( LENGTH_UNIT ( ) NAMED_UNIT ( * ) SI_UNIT ( .MILLI., .METRE. ) );
#142 = DIRECTION ( 'NONE',  ( 1.000000000000000000, 0.000000000000000000, 0.000000000000000000 ) ) ;
#143 = COORDINATED_UNIVERSAL_TIME_OFFSET ( 2, 0, .AHEAD. ) ;
#144 = ADVANCED_FACE ( 'NONE', ( #47, #129 ), #11, .T. ) ;
#145 = ORIENTED_EDGE ( 'NONE', *, *, #257, .F. ) ;
#146 = EDGE_CURVE ( 'NONE', #31, #31, #51, .T. ) ;
#147 = ORIENTED_EDGE ( 'NONE', *, *, #211, .F. ) ;
#148 = ORIENTED_EDGE ( 'NONE', *, *, #244, .T. ) ;
#149 = ORIENTED_EDGE ( 'NONE', *, *, #174, .F. ) ;
#150 = PRODUCT_DEFINITION_FORMATION_WITH_SPECIFIED_SOURCE ( 'ANY', '', #32, .NOT_KNOWN. ) ;
#151 = FACE_OUTER_BOUND ( 'NONE', #66, .T. ) ;
#152 = CARTESIAN_POINT ( 'NONE',  ( 0.000000000000000000, 0.000000000000000000, -8.256108849411651462 ) ) ;
#153 = ADVANCED_FACE ( 'NONE', ( #99, #52 ), #295, .F. ) ;
#154 = DIRECTION ( 'NONE',  ( -0.000000000000000000, -0.000000000000000000, 1.000000000000000000 ) ) ;
#155 = AXIS2_PLACEMENT_3D ( 'NONE', #249, #224, #329 ) ;
#156 = FACE_OUTER_BOUND ( 'NONE', #319, .T. ) ;
#157 = DIRECTION ( 'NONE',  ( 1.000000000000000000, 0.000000000000000000, 0.000000000000000000 ) ) ;
#158 = CARTESIAN_POINT ( 'NONE',  ( 101.5999999999999943, 0.000000000000000000, -8.256108849411651462 ) ) ;
#159 = COORDINATED_UNIVERSAL_TIME_OFFSET ( 2, 0, .AHEAD. ) ;
#160 = CARTESIAN_POINT ( 'NONE',  ( 10.00000000000000000, 0.000000000000000000, 7.499999999999994671 ) ) ;
#161 = APPROVAL_DATE_TIME ( #58, #328 ) ;
#162 = FACE_OUTER_BOUND ( 'NONE', #40, .T. ) ;
#163 = PLANE ( 'NONE',  #63 ) ;
#164 = CIRCLE ( 'NONE', #205, 10.00000000000000000 ) ;
#165 = CC_DESIGN_DATE_AND_TIME_ASSIGNMENT ( #88, #189, ( #119 ) ) ;
#166 = ORIENTED_EDGE ( 'NONE', *, *, #44, .T. ) ;
#167 = CIRCLE ( 'NONE', #193, 26.00000000000000000 ) ;
#168 = EDGE_LOOP ( 'NONE', ( #120 ) ) ;
#169 = EDGE_LOOP ( 'NONE', ( #145 ) ) ;
#170 = CARTESIAN_POINT ( 'NONE',  ( 0.000000000000000000, 0.000000000000000000, 9.550000000000000711 ) ) ;
#171 = CARTESIAN_POINT ( 'NONE',  ( 0.000000000000000000, 0.000000000000000000, 1.385640646055105840 ) ) ;
#172 = CC_DESIGN_PERSON_AND_ORGANIZATION_ASSIGNMENT ( #284, #267, ( #150 ) ) ;
#173 = LOCAL_TIME ( 13, 54, 49.00000000000000000, #217 ) ;
#174 = EDGE_CURVE ( 'NONE', #232, #232, #322, .T. ) ;
#175 = DIRECTION ( 'NONE',  ( 1.000000000000000000, 0.000000000000000000, 0.000000000000000000 ) ) ;
#176 = CARTESIAN_POINT ( 'NONE',  ( 0.000000000000000000, 0.000000000000000000, 0.000000000000000000 ) ) ;
#177 = DIRECTION ( 'NONE',  ( -0.000000000000000000, -0.000000000000000000, 1.000000000000000000 ) ) ;
#178 = AXIS2_PLACEMENT_3D ( 'NONE', #170, #274, #199 ) ;
#179 = AXIS2_PLACEMENT_3D ( 'NONE', #176, #180, #97 ) ;
#180 = DIRECTION ( 'NONE',  ( -0.000000000000000000, -0.000000000000000000, 1.000000000000000000 ) ) ;
#181 = DIRECTION ( 'NONE',  ( -0.000000000000000000, -0.000000000000000000, 1.000000000000000000 ) ) ;
#182 = CARTESIAN_POINT ( 'NONE',  ( 0.000000000000000000, 0.000000000000000000, -9.550000000000000711 ) ) ;
#183 = COORDINATED_UNIVERSAL_TIME_OFFSET ( 2, 0, .AHEAD. ) ;
#184 = VERTEX_POINT ( 'NONE', #285 ) ;
#185 = PERSON_AND_ORGANIZATION_ROLE ( 'creator' ) ;
#186 = DIRECTION ( 'NONE',  ( -0.000000000000000000, -0.000000000000000000, 1.000000000000000000 ) ) ;
#187 = PERSON_AND_ORGANIZATION_ROLE ( 'design_supplier' ) ;
#188 = CARTESIAN_POINT ( 'NONE',  ( 0.000000000000000000, 0.000000000000000000, 9.550000000000000711 ) ) ;
#189 = DATE_TIME_ROLE ( 'classification_date' ) ;
#190 = LOCAL_TIME ( 13, 54, 49.00000000000000000, #183 ) ;
#191 = ORIENTED_EDGE ( 'NONE', *, *, #105, .T. ) ;
#192 = EDGE_LOOP ( 'NONE', ( #43 ) ) ;
#193 = AXIS2_PLACEMENT_3D ( 'NONE', #75, #50, #157 ) ;
#194 = EDGE_LOOP ( 'NONE', ( #89 ) ) ;
#195 = CIRCLE ( 'NONE', #76, 101.5999999999999943 ) ;
#196 = CYLINDRICAL_SURFACE ( 'NONE', #178, 26.00000000000000000 ) ;
#197 = CC_DESIGN_SECURITY_CLASSIFICATION ( #119, ( #150 ) ) ;
#198 = APPROVAL_ROLE ( '' ) ;
#199 = DIRECTION ( 'NONE',  ( 1.000000000000000000, 0.000000000000000000, 0.000000000000000000 ) ) ;
#200 = EDGE_CURVE ( 'NONE', #108, #108, #237, .T. ) ;
#201 = DIRECTION ( 'NONE',  ( 0.000000000000000000, 0.000000000000000000, -1.000000000000000000 ) ) ;
#202 = EDGE_CURVE ( 'NONE', #184, #184, #18, .T. ) ;
#203 = FACE_OUTER_BOUND ( 'NONE', #241, .T. ) ;
#204 = CYLINDRICAL_SURFACE ( 'NONE', #305, 10.00000000000000000 ) ;
#205 = AXIS2_PLACEMENT_3D ( 'NONE', #265, #230, #234 ) ;
#206 = CIRCLE ( 'NONE', #218, 101.5999999999999943 ) ;
#207 = DIRECTION ( 'NONE',  ( 1.000000000000000000, 0.000000000000000000, 0.000000000000000000 ) ) ;
#208 = CARTESIAN_POINT ( 'NONE',  ( 26.00000000000000000, 0.000000000000000000, 9.550000000000000711 ) ) ;
#209 = APPROVAL ( #126, 'UNSPECIFIED' ) ;
#210 = APPROVAL_STATUS ( 'not_yet_approved' ) ;
#211 = EDGE_CURVE ( 'NONE', #287, #287, #164, .T. ) ;
#212 = DIRECTION ( 'NONE',  ( 1.000000000000000000, 0.000000000000000000, 0.000000000000000000 ) ) ;
#213 = AXIS2_PLACEMENT_3D ( 'NONE', #304, #133, #275 ) ;
#214 = DATE_TIME_ROLE ( 'creation_date' ) ;
#215 = CARTESIAN_POINT ( 'NONE',  ( 101.5999999999999943, 0.000000000000000000, 9.550000000000000711 ) ) ;
#216 = DIRECTION ( 'NONE',  ( -0.000000000000000000, -0.000000000000000000, 1.000000000000000000 ) ) ;
#217 = COORDINATED_UNIVERSAL_TIME_OFFSET ( 2, 0, .AHEAD. ) ;
#218 = AXIS2_PLACEMENT_3D ( 'NONE', #10, #186, #55 ) ;
#219 = EDGE_LOOP ( 'NONE', ( #148 ) ) ;
#220 = EDGE_LOOP ( 'NONE', ( #166 ) ) ;
#221 = EDGE_LOOP ( 'NONE', ( #296 ) ) ;
#222 = DIRECTION ( 'NONE',  ( 1.000000000000000000, 0.000000000000000000, 0.000000000000000000 ) ) ;
#223 = SHAPE_DEFINITION_REPRESENTATION ( #283, #135 ) ;
#224 = DIRECTION ( 'NONE',  ( 0.000000000000000000, 0.000000000000000000, 1.000000000000000000 ) ) ;
#225 = APPLICATION_CONTEXT ( 'configuration controlled 3d designs of mechanical parts and assemblies' ) ;
#226 = CARTESIAN_POINT ( 'NONE',  ( 0.000000000000000000, 0.000000000000000000, -7.500000000000005329 ) ) ;
#227 = CARTESIAN_POINT ( 'NONE',  ( 0.000000000000000000, 0.000000000000000000, 7.499999999999994671 ) ) ;
#228 = PLANE ( 'NONE',  #276 ) ;
#229 = APPROVAL_PERSON_ORGANIZATION ( #48, #209, #198 ) ;
#230 = DIRECTION ( 'NONE',  ( 0.000000000000000000, 0.000000000000000000, 1.000000000000000000 ) ) ;
#231 = ADVANCED_FACE ( 'NONE', ( #261, #307 ), #163, .F. ) ;
#232 = VERTEX_POINT ( 'NONE', #7 ) ;
#233 = AXIS2_PLACEMENT_3D ( 'NONE', #101, #201, #303 ) ;
#234 = DIRECTION ( 'NONE',  ( 1.000000000000000000, 0.000000000000000000, 0.000000000000000000 ) ) ;
#235 = CC_DESIGN_PERSON_AND_ORGANIZATION_ASSIGNMENT ( #39, #185, ( #84 ) ) ;
#236 = CALENDAR_DATE ( 2025, 14, 8 ) ;
#237 = CIRCLE ( 'NONE', #36, 89.70000000000000284 ) ;
#238 = CARTESIAN_POINT ( 'NONE',  ( 101.5999999999999943, 0.000000000000000000, 8.256108849411667450 ) ) ;
#239 = PERSON_AND_ORGANIZATION ( #248, #30 ) ;
#240 = DIRECTION ( 'NONE',  ( 0.000000000000000000, 0.000000000000000000, 1.000000000000000000 ) ) ;
#241 = EDGE_LOOP ( 'NONE', ( #67 ) ) ;
#242 = CC_DESIGN_DATE_AND_TIME_ASSIGNMENT ( #112, #214, ( #84 ) ) ;
#243 = EDGE_LOOP ( 'NONE', ( #117 ) ) ;
#244 = EDGE_CURVE ( 'NONE', #34, #34, #246, .T. ) ;
#245 = FACE_OUTER_BOUND ( 'NONE', #268, .T. ) ;
#246 = CIRCLE ( 'NONE', #111, 20.00000000000000355 ) ;
#247 = AXIS2_PLACEMENT_3D ( 'NONE', #138, #240, #14 ) ;
#248 = PERSON ( 'UNSPECIFIED', 'UNSPECIFIED', 'UNSPECIFIED', ('UNSPECIFIED'), ('UNSPECIFIED'), ('UNSPECIFIED') ) ;
#249 = CARTESIAN_POINT ( 'NONE',  ( 0.000000000000000000, 0.000000000000000000, -7.500000000000005329 ) ) ;
#250 = PLANE ( 'NONE',  #251 ) ;
#251 = AXIS2_PLACEMENT_3D ( 'NONE', #132, #327, #46 ) ;
#252 = CARTESIAN_POINT ( 'NONE',  ( 0.000000000000000000, 0.000000000000000000, 1.385640646055105840 ) ) ;
#253 = AXIS2_PLACEMENT_3D ( 'NONE', #252, #154, #222 ) ;
#254 = CARTESIAN_POINT ( 'NONE',  ( 0.000000000000000000, 0.000000000000000000, 7.499999999999994671 ) ) ;
#255 = DIRECTION ( 'NONE',  ( 1.000000000000000000, 0.000000000000000000, 0.000000000000000000 ) ) ;
#256 = CYLINDRICAL_SURFACE ( 'NONE', #291, 101.5999999999999943 ) ;
#257 = EDGE_CURVE ( 'NONE', #110, #110, #195, .T. ) ;
#258 = CC_DESIGN_APPROVAL ( #328, ( #150 ) ) ;
#259 = CARTESIAN_POINT ( 'NONE',  ( 101.5999999999999943, 0.000000000000000000, -9.550000000000000711 ) ) ;
#260 = ADVANCED_FACE ( 'NONE', ( #162, #4 ), #38, .F. ) ;
#261 = FACE_BOUND ( 'NONE', #320, .T. ) ;
#262 = CARTESIAN_POINT ( 'NONE',  ( 26.00000000000000355, 0.000000000000000000, 7.499999999999994671 ) ) ;
#263 = APPLICATION_PROTOCOL_DEFINITION ( 'international standard', 'config_control_design', 1994, #288 ) ;
#264 = AXIS2_PLACEMENT_3D ( 'NONE', #127, #29, #212 ) ;
#265 = CARTESIAN_POINT ( 'NONE',  ( 0.000000000000000000, 0.000000000000000000, 7.499999999999994671 ) ) ;
#266 = MANIFOLD_SOLID_BREP ( 'Boss-Extrude1', #321 ) ;
#267 = PERSON_AND_ORGANIZATION_ROLE ( 'creator' ) ;
#268 = EDGE_LOOP ( 'NONE', ( #273 ) ) ;
#269 = PRODUCT_RELATED_PRODUCT_CATEGORY ( 'detail', '', ( #32 ) ) ;
#270 = EDGE_LOOP ( 'NONE', ( #318 ) ) ;
#271 = EDGE_CURVE ( 'NONE', #35, #35, #206, .T. ) ;
#272 = EDGE_LOOP ( 'NONE', ( #96 ) ) ;
#273 = ORIENTED_EDGE ( 'NONE', *, *, #105, .F. ) ;
#274 = DIRECTION ( 'NONE',  ( -0.000000000000000000, -0.000000000000000000, 1.000000000000000000 ) ) ;
#275 = DIRECTION ( 'NONE',  ( 1.000000000000000000, 0.000000000000000000, 0.000000000000000000 ) ) ;
#276 = AXIS2_PLACEMENT_3D ( 'NONE', #306, #282, #309 ) ;
#277 = DIRECTION ( 'NONE',  ( 1.000000000000000000, 0.000000000000000000, 0.000000000000000000 ) ) ;
#278 = DIRECTION ( 'NONE',  ( -1.000000000000000000, 0.000000000000000000, -0.000000000000000000 ) ) ;
#279 = PLANE ( 'NONE',  #103 ) ;
#280 = CIRCLE ( 'NONE', #78, 26.00000000000000355 ) ;
#281 = VERTEX_POINT ( 'NONE', #158 ) ;
#282 = DIRECTION ( 'NONE',  ( 0.000000000000000000, -0.000000000000000000, 1.000000000000000000 ) ) ;
#283 = PRODUCT_DEFINITION_SHAPE ( 'NONE', 'NONE',  #84 ) ;
#284 = PERSON_AND_ORGANIZATION ( #248, #30 ) ;
#285 = CARTESIAN_POINT ( 'NONE',  ( 89.70000000000001705, 0.000000000000000000, -1.385640646055105840 ) ) ;
#286 = CALENDAR_DATE ( 2025, 14, 8 ) ;
#287 = VERTEX_POINT ( 'NONE', #160 ) ;
#288 = APPLICATION_CONTEXT ( 'configuration controlled 3d designs of mechanical parts and assemblies' ) ;
#289 = SECURITY_CLASSIFICATION_LEVEL ( 'unclassified' ) ;
#290 = DIRECTION ( 'NONE',  ( 0.000000000000000000, 0.000000000000000000, 1.000000000000000000 ) ) ;
#291 = AXIS2_PLACEMENT_3D ( 'NONE', #106, #79, #142 ) ;
#292 = ADVANCED_FACE ( 'NONE', ( #313, #102 ), #228, .F. ) ;
#293 = ORIENTED_EDGE ( 'NONE', *, *, #257, .T. ) ;
#294 = EDGE_LOOP ( 'NONE', ( #124 ) ) ;
#295 = TOROIDAL_SURFACE ( 'NONE', #179, 90.50000000000001421, 1.600000000000001199 ) ;
#296 = ORIENTED_EDGE ( 'NONE', *, *, #200, .T. ) ;
#297 = EDGE_LOOP ( 'NONE', ( #191 ) ) ;
#298 = DIRECTION ( 'NONE',  ( 1.000000000000000000, 0.000000000000000000, 0.000000000000000000 ) ) ;
#299 = CALENDAR_DATE ( 2025, 14, 8 ) ;
#300 = FACE_OUTER_BOUND ( 'NONE', #220, .T. ) ;
#301 = AXIS2_PLACEMENT_3D ( 'NONE', #188, #216, #62 ) ;
#302 = DIRECTION ( 'NONE',  ( 0.000000000000000000, 0.000000000000000000, -1.000000000000000000 ) ) ;
#303 = DIRECTION ( 'NONE',  ( -1.000000000000000000, 0.000000000000000000, 0.000000000000000000 ) ) ;
#304 = CARTESIAN_POINT ( 'NONE',  ( 0.000000000000000000, 0.000000000000000000, -9.550000000000000711 ) ) ;
#305 = AXIS2_PLACEMENT_3D ( 'NONE', #227, #77, #1 ) ;
#306 = CARTESIAN_POINT ( 'NONE',  ( 0.000000000000000000, 43.48060100327663946, -9.550000000000000711 ) ) ;
#307 = FACE_OUTER_BOUND ( 'NONE', #270, .T. ) ;
#308 = APPROVAL_ROLE ( '' ) ;
#309 = DIRECTION ( 'NONE',  ( 1.000000000000000000, 0.000000000000000000, 0.000000000000000000 ) ) ;
#310 =( NAMED_UNIT ( * ) PLANE_ANGLE_UNIT ( ) SI_UNIT ( $, .RADIAN. ) );
#311 = FACE_OUTER_BOUND ( 'NONE', #169, .T. ) ;
#312 = PERSON_AND_ORGANIZATION ( #248, #30 ) ;
#313 = FACE_OUTER_BOUND ( 'NONE', #272, .T. ) ;
#314 = APPROVAL_DATE_TIME ( #85, #26 ) ;
#315 = ADVANCED_FACE ( 'NONE', ( #311, #81 ), #256, .T. ) ;
#316 = APPROVAL_STATUS ( 'not_yet_approved' ) ;
#317 = APPROVAL_PERSON_ORGANIZATION ( #239, #26, #308 ) ;
#318 = ORIENTED_EDGE ( 'NONE', *, *, #174, .T. ) ;
#319 = EDGE_LOOP ( 'NONE', ( #121 ) ) ;
#320 = EDGE_LOOP ( 'NONE', ( #93 ) ) ;
#321 = CLOSED_SHELL ( 'NONE', ( #21, #260, #292, #92, #80, #153, #144, #315, #118, #231, #59, #122 ) ) ;
#322 = CIRCLE ( 'NONE', #95, 20.00000000000000355 ) ;
#323 = EDGE_LOOP ( 'NONE', ( #16 ) ) ;
#324 = APPROVAL_DATE_TIME ( #24, #209 ) ;
#325 = DIRECTION ( 'NONE',  ( 0.000000000000000000, 0.000000000000000000, 1.000000000000000000 ) ) ;
#326 = LOCAL_TIME ( 13, 54, 49.00000000000000000, #128 ) ;
#327 = DIRECTION ( 'NONE',  ( 0.000000000000000000, 0.000000000000000000, 1.000000000000000000 ) ) ;
#328 = APPROVAL ( #316, 'UNSPECIFIED' ) ;
#329 = DIRECTION ( 'NONE',  ( 1.000000000000000000, 0.000000000000000000, 0.000000000000000000 ) ) ;
ENDSEC;
END-ISO-10303-21;
